Tab for Summer Freeze
By Broussard Michel

Tunning : F#AEGBE


Riff A :                         Riff B :
--------------                   ---------------
--------------                   ---------------
--------------                   ---------------
--------0-----   Play 4x then :  --------0------   Play 4x
-2-h-3-----3--                   -1-p-0-----0---
--------------                   ---------------


Then : A (4x), B (4X),A (4x), B (4X),A (4x), B (4X),A (4x), B (4X),A (4x), B 
(4X),A (4x), B (4X),A (4x), B (4X),A (4x), B (4X)

Then :
             4x                  4x                               4x
---------------       -------------        -------------------------
---------------       -------------        -------------------------
---------------       -------------        -------0-----------------
-------0-------       -------0-----        -------------------0-----
----3-----(3)--       ----3-----3--        ----3-----3-----3-----3--
-3-------------       -1-----------        -3-----------3-----------


Then :

Riff C :                     Riff D :
----------                   ----------
----------                   ----------
----------                   ----------
-------0--   Play 4x then :  -------0--
----5-----                   ----6-----
-6--------                   -7--------

Then : C (4x), D(4x),C (4x), D(4x),C (4x), D(4x)

-------------
-------------
-------------
-5--7--9--7--  Play this 4x
-0--0--------
-------------


Then :
              4x                  4x                  4x             4x
---------------I---------------------I---------------------I--------------I
---------------I---------------------I---------------------I--------2-----I
-4-sl-5--2--5--I--(2)-sl-3--2--0--2--I---------------------I-----4-----4--I
---------------I---------------------I--(3)-sl-5--3--2--3--I--5-----------I
---------------I---------------------I---------------------I--------------I
---------------I---------------------I---------------------I--------------I

Note for this part : the notes between () are appogiatures.

Play all this part 3x, but at the end play this :

-------------------
-------2-----------
----4-----4--2--0--
-5-----------------         Then repeat riff C and D etc..........
-------------------
-------------------


tab

unwound

email

This document was last updated 2 May 2002, in the morning.