Abstraktions
Part A
bass guitar
|---------------------------------|
|-----------9-9sl-----------------|
|-----7-7-7-------3---3-3-3-0-0-0-|
|-0-0-----------------------------|
sl = slide down

guitar
|-2-2-2-2-2-2-2-0-----------------|
|-0-0-0-0-0-0-0-0------1-0--------|
|---------------------------------|
|---------------------------------|
|---------------------------------|
|---------------------------------|

Part B
bass
|---------------------------------|
|-----------9-9sl-----------------|
|-----7-7-7-------3---3-3-3-5-0-3-|
|-0-0-----------------------------|

guitar
|---------------------------------|
|-----1-0-------------1-0---------|
|---------------------------------|
|--(2)-------------(2)------------|
|---------------------------------|
|---------------------------------|
notes in ( ) are only heard occasionally

Part C
Bass (abbreviated strumming; each number represents 4 strums)
|-------------------------------------|
|-------------------------------------|
|-11-11-11-11-7-7-7-7-5-5-5-5-0-0-0-0-|
|-------------------------------------|

best guess at the guitar 
|--0--0--0--0-0-0-0-0-0-0-0-0-0-0-7-7-|
|--9--9--9--9-0-0-0-0-3-3-3-3-5-5-5-5-|
|--9--9--9--9-4-4-4-4-2-2-2-2-4-4-4-4-|
|-------------------------------------|
|-------------------------------------|
|-------------------------------------|

Part D
bass (abbreviated strumming; each number is 4 strums)
|---------------------------------|
|---------------------------------|
|-0-0-0-0-------------------------|
|---------0-0-0-0-6-6-6-6-5-5-5-5-|

approximate guitar (it's the best i could do man)
|-0-0-0-0-0-0-0-0-0-0-0-0-0-0-0-0-|
|-5-5-5-5-0-0-0-0-3-3-3-3-1-1-1-1-|
|-4-4-4-4-1-1-1-1-3-3-3-3-2-2-2-2-|
|---------------------------------|
|---------------------------------|
|---------------------------------|

Part E
bass
|---------------------------------|
|-----------9-9sl-5-5-5-5---------|
|-7-7-7-7-7-----------------5-5-6-|
|---------------------------------|

guitar 1
|-0-0-0-0-0-0-0-0-------10--------|
|-9-9-9-9-9-9-9-8-----8-----------|
|---------------------------------|
|---------------------------------|
|---------------------------------|
|---------------------------------|

guitar 2
|-0-0-0-0-0-0-0-0-----------------|
|-9-9-9-9-9-9-9-8-----------------|
|-----------------7---7---7---7---|
|-------------------9---9---9---9-|
|---------------------------------|
|---------------------------------|

Part F
bass - same as part A

guitar
|-0-0-0-0-0-0-0-0-0-0-0-0-0-0-0-0-|
|-9-9-9-9-9-9-9-9-8-8-8-8-8-8-8-8-|
|---------------------------------|
|---------------------------------|
|---------------------------------|
|---------------------------------|

|-----7-------7-------7--------7--|
|-5-5---5-5-5---5-5-5---5-5-5-----|
|---------------------------------|
|---------------------------------|
|---------------------------------|
|---------------------------------|

and after a while:
|-----12------12------12-------12-|
|---------------------------------|
|---------------------------------|
|---------------------------------|
|---------------------------------|
|---------------------------------|

Here's how it goes:
Part A - 4 times
Part B - 4 times
Part A - 4 times
Part B - 4 times
Part C - 4 times
Part D - once
Part A - 4 times
Part B - 4 times
Part E - 4 times
Part F - once
the last bar of part F a bunch of times
and then the last bar a bunch of times
The very last chord appears to be

|---0---|
|---0---|
|---3---|
|---2---|
|---0---|
|-------|

but this doesn't sound quite right to me.


Any help on this song would be appreciated. Mail me if you have something to add.

Back to the Tab page

Back to the Unwound page

This document last updated 6 July 1997