The Unwound side of the split 7-inch record with Steel Pole Bath Tub
no title, though it is sometimes refered to as Scene Not Herd
the guitar tabs all through this song are just a guess

Verse:
bass:
|---------------------------------|
|-------2-2-----------2-----4-5-4-|
|-0-------0-------3-3---3s5-------|
|---------------------------------|
3s5 = play 3, slide up to 5

guitar:
|--------(0)----------------------|
|---------0-----------------------|
|---------5-----------------------|
|---------7-----------------------|
|---------------------------------|
|---------------------------------|
play the note in parenthesis only occasionally
lyric:           "saving grace..."

Build-up:
bass: the same thing
guitar:
|-0---------------0-------0-------|
|-0---------------0-------0-------|
|-5---------------5-------5-------|
|-7---------------7-------7-------|
|---------------------------------|
|---------------------------------|
lyric:           "seen    not..."

|-0-------0---0-0-0-0-0-0-0-0-0-0-|
|-5-------5---5-5-5-5-5-5-5-5-5-5-|
|-5-------5---5-5-5-5-5-5-5-5-5-5-|
|-7-------7---7-7-7-7-7-7-7-7-7-7-|
|---------------------------------|
|---------------------------------|
 "heard"

bass:
|----------------------------------------|
|----------------------------------------|
|-2-------2---2-2-2-2-2-2-2-5-5-5--------|
|---------------------------------0------|

guitar:
|-0---00000---00000---00000---00000------|
|-0---00000---00001---11113---33333------|
|-0---00000---00002---22224---44444------|
|---------------------------------5------|
|---------------------------------0------|
|----------------------------------------|
      ^ this is supposed to represent super-fast strumming

Hardcore breakout:
bass:
|---------------------------------|
|---------------------------------|
|-2-2---2---2-2-2-----------------|
|-----------------2-2---2---2-2-2-|

guitar (this only sorta works):
|-0-0---0---0-0-0-----------------|
|-3-3---3---3-3-3-0-0---0---0-0-0-|
|-----------------3-3---3---3-3-3-|
|---------------------------------|
|---------------------------------|
|---------------------------------|

bass:
|---------------------------------|
|---------------------------------|
|-3-3-3-3-3-3-3-3-7-7-7-7-7-7-7-7-|
|-----------------0-0-0-0-0-0-0-0-|
 "don't recall now, don't remember..."
i don't know the guitar for this part

the last chord:
bass
|------|
|------|
|-0----|
|------|

guitar
|-0----|
|-0----|
|-5----|
|-7----|
|-0----|
|------|


Corrections, additions, contributions, subtractions, abstraktions: ee em aye eye ell

Return to the tablature page

Main Unwound page

This document was last updated on 15 January 1998