Subject:     Tab: Side Effects of Being Tired
Sent:        17/5/1998 8:30 PM
Received:    17/5/1998 8:00 PM
From:        IndieKRS84, IndieKRS84@aol.com
To:          not_dale@geocities.com

I think I figured out the whole guitar and bass parts for Side Effects of
Being Tired.
So Here They are:
Guitar Parts:
Guitar Part 1 w/ Bass 1(intro - no vocals)     

E-----------------------------------------------------------------
B-10-10-10-10-10-10-10-10-10-10-10-10-7-7-7-7
G-------------------------------------------------------8-8-8-8
D-----------------------------------------------------------------
A-----------------------------------------------------------------
E-----------------------------------------------------------------

Guitar Part 2 w/ Bass 1(Vocals)
E--------------------------------------------
B-8-8-8-8-8-8-8-8-8-8-8-8-7-7-7-7
G----------------------------------8-8-8-8
D--------------------------------------------
A---------------------------------------------
E---------------------------------------------

   When I hold my breath....

Guitar Part 3 w/ Bass 2 (no vocals)
E-----------------------------------------------------------------------------
-----------
B-5-5-5-5-5-5-5-5-6-6-6-6-6-6-6-6-8-8-8-8-8-8-8-8-9-9-9-9-9-9-9-9
G-4-4-4-4-4-4-4-4-5-5-5-5-5-5-5-5-7-7-7-7-7-7-7-7-8-8-8-8-8-8-8-8
D-----------------------------------------------------------------------------
-----------
A-----------------------------------------------------------------------------
-----------
E-----------------------------------------------------------------------------
-----------

Guitar Part 4 w/ Bass 3(Vocals)
E------------------------------------------------------------------
B-6-6-6-6-6-6-5-5-5-5-5-5-8-8-8-8-8-8-9-9-9-9-9-9
G-5-5-5-5-5-5-4-4-4-4-4-4-7-7-7-7-7-7-8-8-8-8-8-8
D------------------------------------------------------------------
A------------------------------------------------------------------
E------------------------------------------------------------------

Her magistrate will concentrate....

Guitar Part 5 w/ Bass 4(No Vocals)
E-5---------------5--------------
B----5-6------8----5-6-8------
G---------6-7---------------7-6
D----------------------------------
A----------------------------------
E----------------------------------

Guitar Part 6 - No Bass
E---------------------------------
B-5--------6---------8--------9
G-4--------5---------7--------8
D---------------------------------
A---------------------------------
E---------------------------------

Guitar Part 7 w/ Bass 5
E-----------5w--------------------7-7-7-7
B-----------7w--------------------9-9-9-9
G-----------------------------------9-9-9-9
D-4w------------------4-4-4-4------------
A-5w------------------5-5-5-5------------
E---------------------------------------------

w = whammy bar

Bass Parts:
Bass 1
G--------------------------------------------
D--------------------------------------------
A--------------------------------------------
E-5-5-5-5-6-5-5-5-5-5-5-5-6-5-5-5

Bass 2(I think the notes are this but I couldn't hear the pattern very well)
G-------------------------------------------------
D-------------------------------------------------
A-------------------------------------------------
E-8-5-5-5-5-5-5-5-5-5-5-5-5-5-5-8-8-8

Bass 3
G------------------------------------------------------------------
D------------------------------------------------------------------
A------------------------------------------------------------------
E-1-1-1-1-1-1-0-0-0-0-0-0-3-3-3-3-3-3-4-4-4-4-4-4

Bass 4(Play this the same pattern as the guitar part you play with)
G----------------------------------
D----------------------------------
A----------------------------------
E-5-5-5-5-5-5-5-5-5-5-5-5

Bass 5(This part is almost impossible to hear but I think I got it right)
G--------------------------------
D--------------------------------
A--------------------------------
E-2-0-2---0-0-0-0-0-0-1-1



Tablature page

Unwound page

This document was last updated 19 May 1998