Tab for Scarlette
By Broussard Michel

Tunning : F#ADGBE

                       x20                         X4                        
  x8
-0--0--0--0--0--0--0--0--I--------------------------I--0--0--0--0--0--0--0--0--I
-5--5--5--5--5--5--5--5--I--7--7--7--7--7--7--7--7--I--5--5--5--5--5--5--5--5--I
-x--x--x--x--x--x--x--x--I--x--x--x--x--x--x--x--x--I--x--x--x--x--x--x--x--x--I
-4--4--4--4--4--4--4--4--I--5--5--5--5--5--5--5--5--I--4--4--4--4--4--4--4--4--I
-0--0--0--0--0--0--0--0--I--------------------------I--0--0--0--0--0--0--0--0--I
-------------------------I--0--0--0--0--0--0--0--0--I--------------------------I
 >           >              >           >              >           >


                        X4
-------------------------II--------------------------I--------------------------I
-7--7--7--7--7--7--7--7--II--------------------------I--------------------------I
-x--x--x--x--x--x--x--x--II--5--5--5--5--5--5--5--5--I--5--5--5--5--5--5--5--5--I
-5--5--5--5--5--5--5--5--II--0--0--0--0--0--0--0--0--I--0--0--0--0--0--0--0--0--I
-------------------------II--0--0--0--0--0--0--0--0--I--0--0--0--0--0--0--0--0--I
-0--0--0--0--0--0--0--0--II--------------------------I--------------------------I
 >           >              >           >              >           >


                                                      x4
---------------------------I--------------------------II
---------------------------I--------------------------II
-5-sl-7--7--7--7--7--7--7--I--7--7--7--7--7--7--7--7--II
-0----0--0--0--0--0--0--0--I--0--0--0--0--0--0--0--0--II       etc...
-0----0--0--0--0--0--0--0--I--0--0--0--0--0--0--0--0--II
---------------------------I--------------------------II
 >             >              >           >

That's all. Sorry, but I don't know the slow part at 2:50.

from john sutherland:
hey, i was looking through your dazzling tabs and figured out the rest of 
scarlette.  thought, if i figured it out correctly, it may be of some use to 
you...  it picks up right where broussard left off (the slow part):


I.
------------------------------------------------------------------------------------
------------------------------------------------------------------------------------
------2-----2-------2------5------5-------5------0-----0------0-----3------3s5s2/0--
---0-----0-----0-0------0------0-----0-0------------0----0-0-----0-----0------------
(0)--------------------(0)----------------------------------------------------------
------------------------------------------------------------------------------------


II.
------------------------------------------------------------------------------------
------------------------------------------------------------------------------------
-------2-----2---------2-----2--------2--------2-----2--------2--------2-----2--0---
----0-----0---------0-----0--------0--------0-----0--------0--------0-----0---------
-0--------------0---------------0--------0--------------0--------0------------------
------------------------------------------------------------------------------------




-----------------------------------------------------------------------------------
-----------------------------------------------------------------------------------
-------0-----0---------0-----0--------0--------0-----0--------0--------0-----0-----
----0-----0---------0-----0--------0--------0-----0--------0--------0-----0--------
-0--------------0---------------0--------0--------------0--------0-----------------
-----------------------------------------------------------------------------------


-----------------------------------------------------------------------------------
-----------------------------------------------------------------------------------
-------2-----2---------2-----2--------2--------2-----2--------2--------2-----2--0--
----0-----0---------0-----0--------0--------0-----0--------0--------0-----0--------
-0--------------0---------------0--------0--------------0--------0-----------------
-----------------------------------------------------------------------------------


-----------------------------------------------------------------------------------
-----------------------------------------------------------------------------------
-------5-----5---------5-----5--------5--------7-----7--------7--------7-----7s9---
----0-----0---------0-----0--------0--------0-----0--------0--------0-----0--------
-0--------------0---------------0--------0--------------0--------0-----------------
-----------------------------------------------------------------------------------



i hope i've made myself yousfull.  it sounds like justin adlibs in a few 
places but it's not too bad if you play along with a bass. 


tab

unwound

holler

This document was last updated 26 February 2003