Tab for : October All Over (the beginning of the song)
By Broussard Michel
The tunning is : F#AEAAE


------------------------------------------------------------------------
------------------------------------------------------------------------
------12----11--9-----9---------------------------------9---------------
-------------------9-----9--8--4-sl-5-----------12---------12------12---
----9----9-----------------------------11-h-12------12---------12-------
-0----------------------------------------------------------------------


-------------------------------------------------------------------------
-------------------------------------------------------------------------
------------------9------------------------------------------------------
----------12---------12------12------------------------------------------
-11-h-12------12---------12----------------------------------------------
-------------------------------------------------------------------------

Repeat this riff 5x
Then, play this :

--------------------------------------------------------------------------
--------------------------------------------------------------------------
-------12-----11--9-----9---------------------------------9---------------
---------------------9-----9--8--4-sl-5-----------12---------12------12---
----9------9-----------------------------11-h-12------12---------12-------
-0------------------------------------------------------------------------


-------------0-------------------------------------------------------------
-------------0-------------------------------------------------------------
-------------11------------------------------------------------------------
-12--12--12--9-------------------------------------------------------------
-12--12--11--0-------------------------------------------------------------
---------0-----------------------------------------------------------------

Thanks a lot to Michel B. for sending this in.


Tab

Unwound

Contribute

This document was last updated 1 May 2002