Message Recieved
Intro
bass - repeat 4 times
|-----------------------------------------------------------------|
|-----------------------------2-------------------------------2---|
|-3-0-0-0-3-0-0-0-3-0-3-0-3-4---4-3-0-0-0-3-0-0-0-3-0-3-0-3-4---4-|
|-----------------------------------------------------------------|

guitar - repeat 4 times
|-------------------------------------------------------0---------|
|-7-7-7-7-7-7-7-7-7h9-9-9---7-7-7-7-7-7-7-7-7-7-7-------5-5-5-5-5-|
|-0-0-0-0-0-0-0-0-0-0-0-0-0-0-0-0-0-0-0-0-0-0-0-0-------0-0-0-0-0-|
|-7-7-7-7-7-7-7-7-7-7-7-7-7-7-7-7-7-7-7-7-7-7-7-7-7s5---5-5-5-5-5-|
|-----------------------------------------------------------------|
|-----------------------------------------------------------------|
7h9 = hammer on from 7 to 9
7s5 = slide from 7 to 5

bass
|-----------------------------------------------------------------|
|-----------------------------------------------------------------|
|-5---5---5-----------------------9---9---9-----------------------|
|-----------------------------------------------------------------|

guitar
|-----------------------------------------------------------------|
|-----------------------------------------------------------------|
|---------0-------------------------------0-----------------------|
|-----4-------------------------------4---------------------------|
|-0-------------------------------0-------------------------------|
|-----------------------------------------------------------------|

bass
|-----------------------------------------------------------------|
|-----------------------------------------------------------------|
|-0---0---0-----------------------7-------7-----7---7-7-7-7-7-7-7-|
|-----------------------------------------------------------------|

guitar
|-----------------------------------------------------------------|
|-----------------------------------------------8-----8-8-8-8-8-8-|
|---------0-------------------------------11-------11-111111111111|
|-----7-------------------------------9---------------9-9-9-9-9-9-|
|-4-------------------------------7-------------------7-7-7-7-7-7-|
|-----------------------------------------------------------------|
(by the way, that last chord is REALLY hard to play, which makes me think this song
is played in a different tuning. If anyone has any info about it let me know.)

Verse
bass - repeat 2 times
|-----------------------------------------------------------------|
|-----------------------------2-------------------------------2---|
|-3-0-0-0-3-0-0-0-3-0-3-0-3-4---4-3-0-0-0-3-0-0-0-3-0-3-0-3-4---4-|
|-----------------------------------------------------------------|
"lo                               gic"
"sig                              nal"

guitar - play this chord as fast as you can
|------|
|--12--|
|--15--|
|------|
|------|
|------|

bass
|-----------------------------------------------------------------|
|---------------------------3-4-3---------------------------3-4-3-|
|-5-4-4-4-5-4-4-4-5-4-5-4-5-------5-4-4-4-5-4-4-4-5-4-5-4-5-------|
|-----------------------------------------------------------------|
"gone"

guitar - this chord real fast
|-----|
|-----|
|-----|
|--0--|
|--4--|
|-----|

bass
|-----------------------------------------------------------------|
|-----------------------------2-------------------------------2---|
|-3-0-0-0-3-0-0-0-3-0-3-0-3-4---4-3-0-0-0-3-0-0-0-3-0-3-0-3-4---4-|
|-----------------------------------------------------------------|
"com                              plete"

guitar
|------|
|--12--|
|--15--|
|------|
|------|
|------|

bass
|-----------------------------------------------------------------|
|-----------------------------------------------------------------|
|-5---5---5-----------------------9---9---9-----------------------|
|-----------------------------------------------------------------|

guitar
|-----------------------------------------------------------------|
|-----------------------------------------------------------------|
|---------0-------------------------------0-----------------------|
|-----4-------------------------------4---------------------------|
|-0-------------------------------0-------------------------------|
|-----------------------------------------------------------------|
              "it's an invitation             to an infiltration"  

bass
|-----------------------------------------------------------------|
|-----------------------------------------------------------------|
|-0---0---0-----------------------7-------7-----7---7-7-7-7-7-7-7-|
|-----------------------------------------------------------------|

guitar
|-----------------------------------------------------------------|
|-----------------------------------------------8-----8-8-8-8-8-8-|
|---------0-------------------------------11-------11-111111111111|
|-----7-------------------------------9---------------9-9-9-9-9-9-|
|-4-------------------------------7-------------------7-7-7-7-7-7-|
|-----------------------------------------------------------------|
              "message recieved               from the enemy"  

Noise Break
bass
|-----------------------------------------------------------------|
|-----------------------------------------------------------------|
|-----------------------------------------------------------------|
|-2---------------------------------------------------------------|

|-----------------------------------------------------------------|
|-----------------------------------------------------------------|
|-----------------------------------------------------------------|
|-----------------2-------2-------2-------2-------2-------2-------|

guitar - a bunch of noise

Play Intro, verse chorus verse chorus, noise, verse, chorus, that's it.

The last chord
bass
|-----|
|-----|
|-----|
|--2--|

guitar - i don't know


If you have anything to add, or any other tabs, send them to me

Back to the tab page

Back to the Unwound Page

This document last updated 13 April 1997