Meet The Plastics
transcribed by Eric

The beginning to "meet the plastics"

g----------4p3-------
d-----------------5---

g-----------3p2------
d-----------------5---

chord is questionable!
b---------4---
g---------4---
d-----3-------
a------------(mute)
e---------4---

after the chord fuck around with the riff, you'll see what I mean.

He does a bend somewhere, it's on the g string at the 6th fret

the chorus is like this:

"carbon copies...you always know when their around"

b--12p10---------------10--10
g-----------12b(whole)-------

b--12p10---------------10------------
g-----------10b(whole)----9s12--12


Unwound page

Tab page

This document was last updated 17 March 1998