Laugh Track
Transcribed by Eric

There might a note or two either incorrect or missing at the 
end, but play it at the speed and you can't even notice.

"laugh track" riff

g-----------------------------------------------3^2^0(p)------------------------------------
d------------8----8(h)9(p)8------------4------------------------------------3---------------
a---7-7---7---7----------------3-3---3---3---------------1-1---1-2-2---2---2---0--------
e--------------------------------------------------------------------------------------1-1-1

Laugh Track
Transcribed by Ted

chords:
e--2---3-                                     
b--0---0 -                                
g--0---0- these chords alternate
d---------sumthing like..the first twice then
a---------he 2nd..cant really remember
e--------

then:
e--11--12p11----
b---0----0--------
g---0----0-----
d----------------
a----------------
e-------------------

then he plays some chord where the D note really stands out..probably played
on the b string 3rd fret.

then into this:("im running out of jokes")
e--------------------------------2------------
b-----------------------------------------------
g---------------3-2p0-------------------------
d-----4-------------------/2-------2-2-0-0-0
a--3----3-3------------------------------------
e--------------------------------------------------


Tablature page

Unwound page

This document was last updated 17 August 1998