Go To Dallas And Take A Left

guitar:
|-----------------------------------------|
|-----------------------------------------|
|-----7-7-5-5-4-4-9--9--12-12-9--9--11-11-|
|-5-5-5-5-5-5-5-5-10-10-10-10-10-10-12-12-|
|-0-0-0-0-0-0-0-0-0--0--0--0--0--0--0--0--|
|-----------------------------------------|

synth?:
|-----------------------------------------|
|-----------------------------------------|
|-----------------------------------------|
|------------4--2-------------------------|
|----5----2-------------------------------|
|-3---------------------------------------|

bass:
|-----------------------------------------|
|-----------------------------------------|
|---------5-------0---------2-3---------0-|
|-3---------------------------------------|

speed up, then freak out with guitar, bass, drums, at least one
keyboard (I think there are two), and saxophone.


Mail me with additions, corrections, or submissions

Tab page

Unwound page

This document last updated 31 August 1997