For Your Entertainment
Transcribed by Vincent <imageinf@FranceNet.fr>

(Vincent is a god for transcribing this song)

guitar

intro: crunch sound, play slowly
------------------------------------------------
--1----1-----1-----1----1----1----1----1--------
--2----2-----2-----2----2----2----2----2---(nc)-
--3----0-----3-----0----3----0----3----0--------
--3----0-----3-----0----3----0----3----0--------
------------------------------------------------

chorus: full distortion and very fast
------------------------------------------------
--13-13-13-13-13-...--13-13-13-13-...-----------
--18-18-18-18-18-...--17-17-17-17-...---7---7---
----------------------------------------5---5---
--(very fast)---------------------------5---5---
------------------------------------------------

verse:
--------------------------------------------------
--------------------------------------------------
--11-11-11-11-11-11-11-11----13-13-13-13-13-13-13-
--0--0--0--0--0--0--0--0--0--0--0--0--0--0--0--0--
--------------------------------------------------
--------------------------------------------------


--------------------------------------------------
--------------------------------------------------
--9--9---9---9--9----7--7---9--9---9--9--9---7--7-
--------------------------------------------------
--7--7---7---7--7----5--5---7--7---7--7--7---5--5-
--------------------------------------------------


play intro.
play chorus:

chorus: full distortion and very fast
------------------------------------------------
--13-13-13-13-13-...--13-13-13-13-...-----------
--18-18-18-18-18-...--17-17-17-17-...---7---7---
----------------------------------------5---5---
--(very fast)---------------------------5---5---
------------------------------------------------
  en     -           ter   -    tain - ment


alternative:instead of playing the 18, you can play a 1/2
bend of the 17 on the same string then releasing it to play
the real 17


end:
intro.

then play:
--------------------------------------------------
--3--3---3---3--3----3--3---2--2---2--2--2---2--2-
--2--2---2---2--2----2--2---2--2---2--2--2---2--2-
--5--5---5---5--5----5--5---4--4---4--4--4---4--4-
--5--5---5---5--5----5--5---4--4---4--4--4---4--4-
--------------------------------------------------


then chorus.


From Ben Malleys: 
i believe the intro to for your 
entertainment is played with an Fsus2 chord
rather than an Fmajor chord. in the chord 
form you have for Fmajor, Fsus2
would look like this:

e-x-
b-1-
g-0-
d-3-
a-3-
e-x-

the ending instrumental is sort of based 
on this pattern -- it might be in a
different key (my CD player is busted, 
so i can't play along) -- it might
also be completely wrong, but this is 
how i remember it, feel free to
correct before you post it.

g -----7-------------7------------6------------6------
d -5------7------5-----7-----4-------7---4------7--


Back to the tablature page

Back to the Unwound page

Eeee-mail

This document was last updated 20 April 1999