Dragnalus

Guitar tuned low-to-high D-A-D-G-B-E (sometimes called the drop-D tuning)
Bass tuned normal (E-A-D-G)

Intro
Guitar
|--------(0)-------------(0)-------------(0)-------------(0)------|
|-----------------------------------------------------------------|
|--------(7)-------------(7)-------------(7)-------------(7)------|
|---------7---------------7---------------7---------------7-------|
|--------(0)-------------(0)-------------(0)-------------(0)------|
|-5---------------5---------------5---------------5---------------|
Notes in parantheses are only heard sometimes, i.e. not the first time. 

Bass
|-----------------------------------------------------------------|
|-----------------------------------------------------------------|
|-----------------------------------------------------------------|
|-3---3-3-3-5-0---3---3-3-3-5-0---3---3-3-3-5-0---3---3-3-3-5-0---|

Verse
Guitar
|-----------------------------------------------------------------|
|-----------------------------------------------------------------|
|---------6---------------6---------------6---------------6-------|
|-----------------------------------------------------------------|
|-0---------------0---------------0---------------0---------------|
|-----------------------------------------------------------------|
lyric:   "TV              radio           video           audio..."

|---------------------------------|
|---------------------------------|
|---------------------------------|
|---------7---------------7-------|
|---------------------------------|
|-0---------------5---------------|
 "you're  so      bored   with..."

Bass
|-----------------------------------------------------------------|
|-----------------------------------------------------------------|
|-0---0-0-0---0---0---0-0-0---0---0---0-0-0---0---0---0-0-0---0---|
|-----------------------------------------------------------------|

|---------------------------------|
|---------------------------------|
|-5---5---5---5---3---3---3---3---|
|---------------------------------|

Next part (bridge?)
guitar
|-----------------------------------------------------------------|
|---------1b--------------1b--------------1b--------------1b------|
|---------2---------------2---------------2---------------2-------|
|-----------------------------------------------------------------|
|-----------------------------------------------------------------|
|-----------------------------------------------------------------|
lyric:   "I               don't           feel            strange..."
b = bend this note

|---------------------------------|
|---------------------------------|
|---------------------------------|
|---------------------------------|
|-0---0---3---0---5---3---0---3---|
|---------------------------------|

Bass
|-----------------------------------------------------------------|
|-----------------------------------------------------------------|
|-0---0-0-0---0---0---0-0-0---0---0---0-0-0---0---0---0-0-0---0---|
|-----------------------------------------------------------------|

|---------------------------------|
|---------------------------------|
|-3---3---3---3-3s7---7-7-7-7-7---|
|---------------------------------|
3s7 = play 3 and slide up to 7

Second bridge, right before the end.
guitar - this part is filled with noise between each note. (The noise probably includes 
raking the pick across the strings with the left hand fingering harmonics between the
third and fifth fret, as well as random notes played very high on the neck.)
|-----------------------------------------------------------------|
|---------5b--------------5b--------------5b--------------5b------|
|-----------------------------------------------------------------|
|-(noise)------(noise)----------(noise)--------(noise)------------|
|-----------------------------------------------------------------|
|-----------------------------------------------------------------|
lyric:                   "Don't           know            you..."

|-----------------------------------------------------------------|
|-----------------------------------------------------------------|
|-------------------(noise)---------------------------------------|
|-----------------------------------------------------------------|
|-----------------------------------------------------------------|
|-----------------------------------------------------------------|

Bass
|-----------------------------------------------------------------|
|-----------------------------------------------------------------|
|-----------------------------------------------------------------|
|-x-x-x-x-5---x-x-x-x-x-x-5---x-x-x-x-x-x-5---x-x-x-x-x-x-5---x-x-|
x = strike the string while muting it with the left hand.

|-----------------------------------------------------------------|
|-----------------------------------------------------------------|
|-----------------------------------------------------------------|
|-3---3-3-3-5-0---3---3-3-3-5-0---3---3-3-3-5-0---3---3-3-3-5-0---|


Listen to the song for the order of the parts, and for the subtle nuances.


Email me with corrections, additions, or contributions

Back to the tab page

Back to the Unwound page

This document last updated 25 January 1997