Here Come The Dogs
transcribed by Brian Gerard Cholewinski

intro and verse
guitar
|-----------------------------------------------------------------------|
|-----------------------------------------------------------------------|
|-----------6-6-------------8-8-------------10-10---------------12-12---|
|-5-5-5-----6-6---7-7-7-----8-8---9-9-9-----10-10---11-11-11----12-12---|
|-5-5-5-----4-4---7-7-7-----6-6---9-9-9-----8--8----11-11-11----10-10---|
|-3-3-3-----------5-5-5-----------7-7-7-------------9--9--9-------------|

|-------------------------------------------------------------------------------------|
|-------------------------------------------------------------------------------------|
|-------------------------------------------------------------------------------------|
|-13-13-13-------------13-13-13-------------13-13-13-------------13-13-13-------------|
|-13-13-13-------------13-13-13-------------13-13-13-------------13-13-13-------------|
|-11-11-11-------------11-11-11-------------11-11-11-------------11-11-11-------------|
lyric:     "damned if you do    damned if you don't   you might believe in something else"

bass
|-----------------------------------------------------------------------|
|-----------------------------------------------------------------------|
|-----------4-4-------------6-6-------------8--8----------------10-10---|
|-3-3-3-----------5-5-5-----------7-7-7-------------9--9--9-------------|

|-------------------------------------------------------------------------------------|
|-------------------------------------------------------------------------------------|
|-------------------------------------------------------------------------------------|
|-11-11-11-0-11-0-11-0-11-11-11-0-11-0-11-0-11-11-11-0-11-0-11-0-11-11-11-0-11-0-11-0-|

	CHORUS screaming, "...here come the dogs..."

	|  x    x    x    x    x    x    x    x
	| 14 - 14 - 14 - 14 - 14 - 14 - 19 - 19
	| 12 - 12 - 12 - 12 - 12 - 12 - 17 - 17
	| 11 - 11 - 11 - 11 - 11 - 11 - 16 - 16
	|  x    x    x    x    x    x    x    x
	|  x    x    x    x    x    x    x    x 

	OUTRO 

	|  x    x    x    x    x    x    x    x
	| 14 - 14 - 14 - 14 - 14 - 14 - 17 - 17
	| 12 - 12 - 12 - 12 - 12 - 12 - 15 - 15
	| 11 - 11 - 11 - 11 - 11 - 11 - 14 - 14
	|  x    x    x    x    x    x    x    x
	|  x    x    x    x    x    x    x    x

he's playong these chords pretty fast, so you'll be playing each one 
twice, i guess, if you know what i mean.


Back to the tablature page

Back to the Unwound page

Mail me if you dare

This document last updated 17 December 1997