Disappoint

the strumming throughout this song is pretty vague
verse
guitar
|------------------------------------------------------|
|(0-0-0-0)----(0-0-0)-(0-0)------(0-0-0)--(0-0-0-0-0)--|
|-0-0-0-0------0-0-0---0-0--------0-0-0----0-0-0-0-0---|
|-0-0-0-0------0-0-0---0-0--------0-0-2----2-2-2-2-2---|
|-3-3-3-1------1-1-1---1-1------------0----0-0-0-0-0---|
|-------------------------------3-3-3------------------|
notes in parentheses are only heard sometimes
lyric:     do interuptions all sound the same?

bass
|------------------------------------------------------|
|------------------------------------------------------|
|-3-3---1------1-1-1---1-1------------0----0-0-0-0-0---|
|-----3-------------------------3-3-3----------------3-|

chorus - can't quite make it out, but I did my best
guitar
|-----------------------------------------------------------------|
|-----------------------------------------------------------------|
|-5-5-5-5-5-5-5-5-5-5-5-5-5-5-5-5---------------------------------|
|-8-8-8-7-5-5-5-5-5-5-5-7-7-7-7-7----i don't know the rest of it--|
|-0-0-0-0-0-0-0-0-0-0-0-0-0-0-0-0---------------------------------|
|-----------------------------------------------------------------|

bass
|-----------------------------------------------------------------|
|---------------------------------------------------2-2-2-2-3-3---|
|---------------------------------0-0-0-0-0-0-0-0-----------------|
|-3-3-3-3-3-3-3-3-3-3-3-3-3-3-3-3---------------------------------|

interlude
guitar
|--------------------------------------------------|
|--------------------------------------------------|
|---------------2------------------------2---------|
|-----0-----0------------------0-----0-------------|
|---0---0-----0--------------0---0-----0-----------|
|-6-------6----------------6-------6---------------|

bass
|--------------------------------------------------|
|--------------------------------------------------|
|-0-0----------------------0-0---------------------|
|--------------------------------------------------|

guitar
|--------------------------------------------------|
|--------------------------------------------------|
|-----9-----9---9------------------------2---------|
|---0---0-----0----------------0-----0-------------|
|s8-------8------------------0---0-----0-----------|
|--------------------------6-------6---------------|
s8 = slide up to 8

bass
|--------------------------------------------------|
|-0-0----------------------------------------------|
|--------------------------0-0---------------------|
|--------------------------------------------------|

as usual, listen to the record to get all this stuff precise.


I am very grateful to the guy who sent me a tip on how to play this song. Unfortunately I forgot his name. But thanks anyway, Mystery Man.

Mail me with corrections or additions, or if you just need a shoulder to cry on

Unwound page

Tablature page

This document last updated 3 June 1997