Here's the guitar tab for DATA:
Transcribed by: Kody Slusher
The chord during the intro/verse is:
0-----------
0-----------
11---------
9-----------
x-----------
0-----------
Then it goes to:
----------------------------------------------------------------------------------------------------
-----10---------11---10---------10----------11---10------------10-----------11---10------------10---
----------------------------------------------------------------------------------------------------
9----------9-----------------9-----------9--------------------9------------9--------------------9---
----------------------------------------------------------------------------------------------------
------"False alarm"---------"False alarm"---------------"False alarm"-------------------------------
Then:
------------------------12///////////-----------------------------------------------------------
11//////////14////////-------------14//////////11-12-13-14-15-16-17-18-19-20-> slide up frets
-------------------------------------------------------------------------------------------------
-------------------------------------------------------------------------------------------------
-------------------------------------------------------------------------------------------------
-------------------------------------------------------------------------------------------------
Chorus goes:
pick out these chords:
-------------------------------
---------------0------0-------
---------------2------2-------
------------4-------4---------
---------2---------------------
-------------------------------
Then:
---------------------------------------------------
---------------------------------------------------
------------0-----------0---------0--0--0--0---
------4-----------4---------------2--2--0--0---
---------------------------------------------------
3--------------------------0---------------------
Outro is:
--------------------------------------------------------------------------------------------------------------------
------------------------------------------------------------------------------------5----------5--------------------
-----------------------------14--------12-----------0-----------0----------2------------------------7--6----7--6----
-----------------------12-------------------------7----------------------------------------------------7--7----7--7-
/slide up to 14--------------14---------9--------------9---------4--------------4---------0----------0--------------
--------------------------------------------------------------------------------------------------------------------
///////= trem picked notes
That's pretty much it, there's variations to each part. Dont play them the same every time.
Enjoy, Kody



Unwound page

Tab page

This document was last updated 17 June 1998

kiss me.