Sensible
bass
|---------------------------------|
|---------------------------------|
|---------------------------2-2-0-|
|-0-3-3---3-----0-1--1--1-1-------|

|---------------------------------|
|-----------------3---3-0-----0---|
|---------5---5-0---------2-3-----|
|-0-3-3---------------------------|

|---------------------------------|
|-----7---7-7---------9---9s11-11s|
|-5-----5-----5-0-7-----7---------|
|---------------------------------|
9s11 = slide from 9 to 11
11s = slide down from 11

Census
bass
|---------------------------------|
|---------------------------------|
|---------------------------2-2-0-|
|-0-3-3-3-3-3-3-0-1-1-1-1-1-------|

|---------------------------------|
|-----7---7-7---------9---9s11-11-|
|-5-5---5-----5-0-7-7---7---------|
|---------------------------------|

As you can see these two songs are nearly the same - Census is just faster and
Sensible has one extra part. There is no guitar part on Sensible other than ambient
noise, and I think there is a clean-tone guitar playing chords along with the horns 
on Census but I'm not going to try to figure it out. I'm also not going to tab out
the horn parts for guitar (just in case you thought I might).


Send me corrections, additions, or other songs: e m a i l e m a i l e m a i l

Back to the tab page

Back to the Unwound page

This document last updated 3 June 1997